Um Blog feito para quem gosta de Violão e Guitarra, com dicas e aulas de Raphael Maia, que é Professor de Música, Cantor e Compositor profissional. Vale a pena conhecer esse Blog! Acesse também o site http://www.artmaia.com

.posts recentes

. VIOLÃO E GUITARRA - O Bás...

. DICAS DE AFINAÇÃO

. PROMOÇÃO ARTMAIA - GANHE ...

. CAMPO HARMÔNICO

. CURSOS DE VIOLÃO E GUITAR...

. TÉCNICAS BÁSICAS DE VIOLÃ...

. COMO APRENDER A TOCAR VIO...

. CURSO COMPLETO DE VIOLÃO ...

. SEGREDOS DO BOM GUITARRIS...

. A ARTE DE SOLAR

.arquivos

. Novembro 2008

. Outubro 2008

. Setembro 2008

. Agosto 2008

. Julho 2008

. Junho 2008

. Junho 2007

. Março 2007

. Dezembro 2006

. Setembro 2006

. Agosto 2006

. Julho 2006

. Maio 2006

. Abril 2006

. Março 2006

. Fevereiro 2006

Sábado, 6 de Setembro de 2008

FINGER PICKING ( DEDILHADO ) PARTE 2 - EXERCÍCIOS


Uma vez que você aprendeu a técnica, experimente este exercício. Toque cada compasso 4 vezes e então passe para o próximo exercício. Continue tocando até que você consiga tocar bem solto.
01
E------3------------------------3-------
B ----------0---------------0------------
G -------------0-------0-----------------
D --0--------------0---------------------
A -----------------------------------------
E -----------------------------------------
02
E ------0------------------------0-------
B ----------0---------------0------------
G -------------0-------0-----------------
D --2--------------2---------------------
A -----------------------------------------
E -----------------------------------------
03
E ------0------------------------0-------
B ----------1---------------1------------
G -------------0-------0-----------------
D --2--------------2---------------------
A -----------------------------------------
E -----------------------------------------
04
E ------2------------------------2-------
B ----------1---------------1------------
G -------------2-------2-----------------
D --0--------------0---------------------
A -----------------------------------------
E -----------------------------------------
É muito bom você aprender o básico corretamente. Se você é capaz de tocar bem esses exercícios, você estará no caminho correto para dominar a técnica de dedilhados.
www.artmaia.com
publicado por cursodeguitarraonline às 10:53
link do post | comentar | favorito
|

.mais sobre mim

.pesquisar

 

.Novembro 2008

Dom
Seg
Ter
Qua
Qui
Sex
Sab
1
2
3
4
5
6
7
8
9
10
11
12
13
15
16
17
18
19
20
21
22
24
25
26
27
28
29
30

.tags

. todas as tags

blogs SAPO

.subscrever feeds